(home) (bottom)


blsjnlsbalwivbalv - released January 1998 - Transcriptions

S = sound file L = lyrics T = transcription

S L S 1 01 "the fires of life"

"verse":                             "chorus":
guitar (after 2 repeats of bass):
     G               C                 Bm7            G
     --------------------------------  ------5-----5---------3---3-3---
     --------------------------------  ------3---3-3-0-------3---3-3---
     --------------0---5---5---5---5-  ------------------0---0---0-0-0-
     --------0-2-3-------------------  ----4-----4-------0-------0-0-0-
     --0-2-3---------3---3---3---3---  2-------------------------------
     3-------------------------------  ----------------3---------------

bass:
---------------------5-5-5-5-5-5-7-0-  --------------------------------
---------------------3-3-3-3-3-3-----  --------------------------0-2---
-------------------------------------  2---2-2---2-4-0---------2-----0-
(8\)-3---3-3-3-3-3-3-----------------  ----------------3---3-3---------
repeat everything except the thing in parentheses.

other part (guitar and bass):
2-3---0------------------------
---------3---0---2---0---------
-------------------------3---0-
-------------------------------

* * * * * * * * * * * * * * * * * * * * * * * * * * * * * * * * * * ^top^

S L S 1 02 "i am the sunset"

acoustic guitar:
------5---5-5---0-0------------
------6---6-6---5-5---0--------
5-----7---7-7---6-6---5---5-5--
6-----0---0-0---7-7---6---6-6--
7---------------0-0---7---7-7--
0---------------------------0--

other part:
------7---------------7--------
------6---------------6--------
5-----5---------5-----5--------
6-----0---------6-----0--------
7---------------7--------------
0---------------0--------------

the end:
------7---------------7--------7---7---7---7---5
------6---------------6--------6---6---6---6---5
5-----5---------5-----5--------7---7---7---7---6
6-----0---------6-----0--------5---5---5---5---7
7---------------7--------------5---5---5---5---7
0---------------0------------------------------5

There is also another guitar at the beginning that does something.

* * * * * * * * * * * * * * * * * * * * * * * * * * * * * * * * * * ^top^

X L S 1 06 "the little people"

2 chords: E, Bm.

* * * * * * * * * * * * * * * * * * * * * * * * * * * * * * * * * * ^top^

S L S 1 10 "the swirly maker"

(acoustic guitar) 1st part:
--------------------------------0-------------------------0-----
--------------------2-----2-----2-2-2---2---3---0---------0---0-
--------------------2-----2-----2-2-2---2---2---0---------0---0-
--------------------0-----------------0-----3---2---------2---2-
----------------2---2---2-------2-----2---------3-------3-----3-
----------0-2-0---------0---------------------------------------

"bridge:"
----1---------0-0-0---0---0-0-0-1-1-1-1-1-1-1-1-0---------------
1-1-1-1-----3-3-1-1---1---1-1-1-1-1-1-1-3-3-3-3-0---------------
2-2-2-2-1-1-1-1-2-2---2---2-2-2-2-2-2-2-2-2-2-2-0---------------
3-3-3-3-2-2-2-2-2-2---2---2-2-2-3-3-3-3-3-3-3-3-2---------------
3-3-3-3-2-2-2-2-0-0---0---0-0-0-3-3-3-3-1-1-1-1-3---------------
1-1-1-1-0-0-0-------------------1-1-1-1-1-1-1-1-----------------

other part:
------4-----4---------4---4-----------3-----3---------3---------
5-----5---5-5---5---5-5---5-----------3-----3-3-----3-3-----2---
6-----6---6-6-6-6---6-6---6---------4-4---4-4-4-----4-4-----2---
6-----6---6-6-6-6---6-6---6---------5-5---5-5-5-5---5-5-----2---
4---4-----4---4-4---4-----4---------5-----5---5-5---5-5-----0---
----------------------------4---3---3-----3---3-3---3-----------

* * * * * * * * * * * * * * * * * * * * * * * * * * * * * * * * * * ^top^

X L S 1 20 "the land of water"

chords are Am, G, Dm in open positions. 

part A:
Am, G, Am, G, Am, G, Am, thing 

thing:
----------------
----------------
----------------
0---0-----------
2---2-----------
3---3--33-2-1-0-

part B:
Dm, Am, Dm, Am, Dm, Am, Dm, thing

* * * * * * * * * * * * * * * * * * * * * * * * * * * * * * * * * * ^top^
top