(home) (bottom)


Diverse Uniform - released October 2001 - Transcriptions

S = sound file L = lyrics T = transcription

X L S 1 02 "Protruding Cavity"

guitar, with surf reverb
intro/outro:
3-333-3---3-3-----111-1---1-1-----333-3---1-1---3---------------
3-333-3---3-3-----111-1---1-1-----333-3---1-1---3---------------
3-333-3---3-3-----222-2---2-2-----333-3---2-2---3---------------
5-555-5---5-5---3-333-3---3-3---5-555-5---3-3---5---------------
5-555-5---5-5---3-333-3---3-3---5-555-5---3-3---5---------------
3-333-3---3-3---1-111-1---1-1---3-333-3---1-1---3--------------- x2 

--------------------------------------------------------3-------
--------------------------------------------------------3-------
--------------------------------------------------------3-------
--------------------------------------------------------5-------
--------------------------------------------------------5-------
6-333-6-333-6-3-6-333-6-333-6-3-6-333-6-333-6-3-6-33333-3------- x2
"his fu manchu is dyed blue..."

--------------------------------------------------------1-------
--------------------------------------------------------1-------
--------------------------------------------------------2-------
--------------------------------------------------------3-------
--------------------------------------------------------3-------
3-111-3-111-3-1-3-111-3-111-3-1-3-111-3-111-3-1-3-11111-1-------
"then slower than the speed of sound..."

then play 6 333 part again once.

3---3-3---3-3-3-6---6-6---6-6-6-8---8-8---8-8-8-6---6-6---6-6---
3---3-3---3-3-3-6---6-6---6-6-6-8---8-8---8-8-8-6---6-6---6-6---
3---3-3---3-3-3-7---7-7---7-7-7-9---9-9---9-9-9-7---7-7---7-7---
5---5-5---5-5-5-8---8-8---8-8-8-10--1010--1010108---8-8---8-8---
5---5-5---5-5-5-8---8-8---8-8-8-10--1010--1010108---8-8---8-8---
3---3-3---3-3-3-6---6-6---6-6-6-8---9-8---8-8-8-6---6-6---6-6---
"even as your slave..."

3---3-3---3-3-3-6---6-6---6-6-6-10--1010--1010--10101010101010--
3---3-3---3-3-3-6---6-6---6-6-6-10--1010--1010--10101010101010--
3---3-3---3-3-3-7---7-7---7-7-7-11--1111--1111--11111111111111--
5---5-5---5-5-5-8---8-8---8-8-8-12--1212--1212--12121212121212--
5---5-5---5-5-5-8---8-8---8-8-8-12--1212--1212--12121212121212--
3---3-3---3-3-3-6---6-6---6-6-6-10--1010--1010--10101010101010--

then play outro once. 

make up your own bassline.

* * * * * * * * * * * * * * * * * * * * * * * * * * * * * * * * * * ^top^

S L S 1 03 "Growing Shorter"

bass:
----------------------------------------------------------------
----------------------------------------------------------------
------------------------------------5\(3)---3-------2-----------
0---3-0-2-/(5)5---0-3-0-2/(5)-5---5-------4---4-3-------3-2-1---
play it different every time, and don't be afraid to add or subtract 
beats whenever you feel like it.

guitar, with delay (340 ms):
----------------------------------------------------------------
----------------------------------------------------------------
------------------------------------9-------8-------7-----------
----9---8-7---------7---8-9---------------9---9-8-------9-8-7---
7-----------------9---------------------------------------------
----------------------------------------------------------------
also play this different every time, but try to play along with the bass.

* * * * * * * * * * * * * * * * * * * * * * * * * * * * * * * * * * ^top^

S L S 1 07 "Gigantically Svelte"

bass:
--------------------------------
--------------------------------
------------------------7-------
0-------7-------9---------------

the guitar is fake.

* * * * * * * * * * * * * * * * * * * * * * * * * * * * * * * * * * ^top^

X L S 1 09 "Stale Freshness"

bass:
----------------------------------------------------------------
----------------------------------------4-----------------------
4---------------4---------------2-----------------------2-------
--------4---------------4-----------------------2---------------

guitar is similar but with chords between the bass notes.

* * * * * * * * * * * * * * * * * * * * * * * * * * * * * * * * * * ^top^

S L S 1 10 "Flagrant Affection"

guitar, 1st part:
--------------------------------
--------------------------------
----2-2-----4-------------------
----2-2-----4---------2---------
----0-0-----2---------2---------
----------------------0---------

guitar, other part:
--------------------------------
--------------------------------
----5-5-----2-----4-------------
----5-5-----2-----4-------------
----3-3-----0-----2-------------
--------------------------------

* * * * * * * * * * * * * * * * * * * * * * * * * * * * * * * * * * ^top^

X L S 1 12 "Vomitous Meal"

guitar:
-------------------------------
-------------------------------
13--11--------11111313---------
14--12--------12121414-13--14--
-------------------------------
-----------------------11--12--
aronfire...   from...  my feet

* * * * * * * * * * * * * * * * * * * * * * * * * * * * * * * * * * ^top^

X L S 1 13 "Narrow Expanse"

guitar:
1 2 3 4 5 6 7 1 2 3 4 5 6 7
--------------------------------------------------------
--------------------------------------------------------
----------------4-4---2---------------------------------
4\2---2---4---4---5-5---3---4\2---2---4---4---5-4-3-2---4\
5\3-0-3---5---5-------------5\3-0-3---5---5-------------5\
--------------------------------------------------------   etc.

high part:
----------------------------
----------------------------
----------------1616--14----16\
14--14--16--16--1717--15----
17\150-15--17--17-----------17\
----------------------------

* * * * * * * * * * * * * * * * * * * * * * * * * * * * * * * * * * ^top^

X L S 1 15 "Knowing His Random"

guitar, with "fuzz"
fast part:
----------------------------------------------------------------
----------------------------------------------------------------
----------------------------------------------------------------
----------------------------------------------------------------
2---------------2---------------2---------------2---------------
--------3---------------3---------------3---------------3-------

slow part:
----------------------------------------------------------------
----------------------------------------------------------------
----------------------------------------------------------------
----------------------------------------------------------------
2---------------------------------------------------------------
--------------------------------3-------------------------------
it's the same, but four times slower!

* * * * * * * * * * * * * * * * * * * * * * * * * * * * * * * * * * ^top^

X L S 1 16 "Deepest Surface"

guitar: Use a screwdriver. 
Make it bounce against the strings for the "cricket" sound, and 
wiggle it back and forth across the strings for the wiggly sound.

* * * * * * * * * * * * * * * * * * * * * * * * * * * * * * * * * * ^top^

X L S 1 18 "Dehydrated Water"

guitar (acoustic):
intro:
----------------------------------------------------------------
----------------------------------------------------------------
0-------0---0-0---0-0---0---0-0-0-------0-----0---0---0-0---0-0-
1-------1---1-1---1-1---1---1-1-1/(2)---2-----2---2---2-2---2-2-
2-------2---2-2---2-2---2---2-2-2/(3)---3-----3---3---3-3---3-3-
0-------0---0-0---0-0---0---0-0-0-------0-----0---0---0-0---0-0- 
once... when
----------------------------------------------------------------
----------------------------------------------------------------
0-------0-----0---0-0-----0-0---0-------0-----0---0-0---0-0-0-0-
4-------4-----4---4-4-----4-4---0-------0-----0---0-0---0-0-0-0-
2-------2-----2---2-2-----2-2---2-------2-----2---2-2---2-2-2-2-
0-------0-----0---0-0-----0-0---3-------3-----3---3-3---3-3-3-3-
I was eight... I trydrealhard... to then repeat this part:

----------------------------------------------------------------
3-------------3---3---------------------------------------------
0-------0---0-0---0-0---0-------0-------0---0-0---0-0---0---0---
0-------0---0-0---0-0-------4---2-------2---2-2---2-2---2/4-4---
2-------2---2-2---2-2-----------3-------3---3-3---3-3---3/5-5---
3-------3---3-3---3-3-----------------------0-----------0-------
see my fate... I saw my- self... Ina...

* * * * * * * * * * * * * * * * * * * * * * * * * * * * * * * * * * ^top^

X L S 1 21 "Utopian Hell"

bass:
----------------------------------------------------------------
----------------------------7-------------------9---------------
----7-------7-------7---------------------------------------0---
0-----0-0-------0-----0-0-------------------0-------0---2/3-----
something like that anyway. 

guitar:
----------------------------------------------------------------
----------------------------------------------------------------
----9-------9-------9-------------------------------------------
----------------------------7-----------------------------------
7---7---7---7---7---7---7---7-----------------------------------
0-----0-0-------0-----0-0---5-----------------------0---2---3---

* * * * * * * * * * * * * * * * * * * * * * * * * * * * * * * * * * ^top^

X L S 1 27 "Pristine Dump"

bass:
----------------------------------------------------------------
0---0-0-3-0-3-5-7---------------0---0-0-3-0---------------------
--------------------------------------------3-0-----------------
----------------------------------------------------------------

* * * * * * * * * * * * * * * * * * * * * * * * * * * * * * * * * * ^top^

X L S 1 29 "Hardly Soft, yet Largely Small"

bass and guitar:
----7-----------6---------5-------5--------7-----------6---------3------3---
--------7-----------6-------5-------5----------7-----------6-------3------3-
5-----------5-----------3-------3-------5----------5-----------2-------2----
----------------------------------------------------------------------------

* * * * * * * * * * * * * * * * * * * * * * * * * * * * * * * * * * ^top^
top