(home) (bottom)


Insert Piz Here—> - released August 1995 - Transcriptions

S = sound file L = lyrics T = transcription

S L S 1 09 "Vote For Robbie"

guitar (1 beat= 6 spaces):
------------------------
7-----7-x-x-x0-6--6-----
7-----7-x-x-x0-6--6--0--
7-----7-x-x-x--6--6-----
------------------------
------------------------ etc. and silly stuff like that.

bass:
------------------------
------------------------
------9-----------8-----
7-----------6----------- * * * * * * * * * * * * * * * * * * * * * * * * * * * * * * * * * * ^top^
top