(home) (bottom)


Peace Monkey Flimp - released November 1995 - Transcriptions

S = sound file L = lyrics T = transcription

X L S 1 06 "butthole"

guitar intro (1 beat = 8 spaces):
--------------------------------
--------7---x-0-----------------
----x---5---x-------------------
----x-------x-----------3-------
----x-----------4---4-------0---
2------------------------------- etc.
repeat a few times

other part:
--------------------------------
--------------------------------
------------x-x-4---------------
----x---6---x-------------------
4---x---4-----------------------
2-------------------7---5---4---
repeat lots

end part:
--------------------------------
------------------x-------------
------------x-0---x-x-x-4---4---
--------15--x---x-x-x-x-3---3---
--------13--x---x-x-x-x---------
0---0-----------x---x-----------

silly bassline:
--------------------------------
--------------------------------
--------4---------------3-------
2---------------5---5-----------
play over and over forever

* * * * * * * * * * * * * * * * * * * * * * * * * * * * * * * * * * ^top^

S L S 1 11 "pancakes and broccoli"

basic guitar thingie (1 beat = 8 spaces):
3---1---3-1---------------------
------------3-3-2-1-------------
--------------------3---0-------
--------------------------------
--------------------------------
--------------------------------
play with alternating strokes

then the chords are G and C7
                   -3-    -0-
                   -0-    -1-
                   -0-    -3-
                   -0-    -2-
                   -2-    -3-
                   -3-    ---

bassline:
--------------------------------
--------------------------------
--------------------------------
3---3--/8---8-------8---8-------
you'll notice that it's two notes

* * * * * * * * * * * * * * * * * * * * * * * * * * * * * * * * * * ^top^
top