(home) (bottom)


The Bloody One - released October 1997 - Transcriptions

S = sound file L = lyrics T = transcription

X L S 2 03 "larry's carcass"

guitar intro (clean):
----------------------------0--------------------------------
----7---------------7-------0-------7---------------7--------
7-7-7-------6---7-7-7-------0---7-7-7-------6---7-7-7--------
7-7-7-5/6---6-0-7-7-7-5/6-------7-7-7-5/6---6-0-7-7-7-5/6----
5-5---5/6-6-6-0-5-5---5/6-------5-5---5/6-6-6-0-5-5---5/6--/\
------3/4-4-----------3/4-------------3/4-4-----------3/4--/\
                            ^distortion, then slide up and down somewhere

guitar verse:                    guitar chorus:
-------------------------------- --------------------------------
-------------------------------- --------------------------------
7-7-------------7-7------------- 5---5-4-2---2-4-5---5-4-2---2-4-
7-7---5-6-6-5-5-7-7---5-6------- 5---5-4-2---2-4-5---5-4-2---2-4-
5-5-0-5-6-6-5-5-5-5-0-5-6---2--- 3---3-2-0---0-2-3---3-2-0---0-2-
----0-3-4-4-3-3-----0-3-4---0--- --------------------------------
repeat ? times.                  repeat ? times. 

bass:
-------------------------------- --------------------------------
-------------------------------- --------------------------------
5-5-------------5-5------------- 3---3-2-0---0-2-3---3-2-0---0-2-
----0-3-4-4-3-3-----0-3-4-4-3-3- --------------------------------

* * * * * * * * * * * * * * * * * * * * * * * * * * * * * * * * * * ^top^

S L S 2 04 "on the boat"

guitar w/light distortion (1 beat = 8 spaces):
(all upstrokes)
----------------------------------------------------------------
--------------------------------------------------------8---6---
0-------0-------0-------0-------0-------0-------0---------------
0-------0-------0-------0-------0-------0-------0---------------
----------------------------------------------------------------
----------------------------------------------------------------

bass:
----------------------------------------------------------------
----------------------------------------------------------------
0---0---3---0-3-0---------------0---0---3---0-3-0---------------
------------------------3-------------------------------3-------
                        ^bend                           ^bend

* * * * * * * * * * * * * * * * * * * * * * * * * * * * * * * * * * ^top^

X L S 2 06 "my name is sussssy (i'm dead)"

bassline:
--0-2-0-----5-----0-2-0-----5--
-------------------------------
3-------3-------3-------3------
-------------------------------

guitar:
-------------------------------
5-5---4-4---3-4---3-4---4---4--
-------------------------------
-------------------------------
-------------------------------
-------------------------------

* * * * * * * * * * * * * * * * * * * * * * * * * * * * * * * * * * ^top^

S L S 2 12 "you taste dead"

bassline:
Dm                              G               A
----------------------------------------------------------------
----7-------7-------7-5-4-----------------------------------2---
5-----5---5---5-5---------7-5-------5-------5-------5-0-4-6---0-
------------------------------7-3-----3---3---3-3---------------

guitar: play open chords. 
Dm becomes D on chorus. use all upstrokes on the chorus (i.e. "ska" style).
otherwise it is strummed in a somewhat complicated way that would take
a long time to figure out how to type. listen to the song.

* * * * * * * * * * * * * * * * * * * * * * * * * * * * * * * * * * ^top^

S L S 2 27 "larry's park (scary evil death version)"

guitar intro (clean):
----------------------------0--------------------------------
----7---------------7-------0-------7---------------7--------
7-7-7-------6---7-7-7-------0---7-7-7-------6---7-7-7--------
7-7-7-5/6---6-0-7-7-7-5/6-------7-7-7-5/6---6-0-7-7-7-5/6----
5-5---5/6-6-6-0-5-5---5/6-------5-5---5/6-6-6-0-5-5---5/6--/\
------3/4-4-----------3/4-------------3/4-4-----------3/4--/\
                            ^distortion, then slide up and down somewhere

guitar verse:                    guitar chorus:
-------------------------------- --------------------------------
-------------------------------- --------------------------------
7-7-------------7-7------------- 5---5-4-2---2-4-5---5-4-2---2-4-
7-7---5-6-6-5-5-7-7---5-6------- 5---5-4-2---2-4-5---5-4-2---2-4-
5-5-0-5-6-6-5-5-5-5-0-5-6---2--- 3---3-2-0---0-2-3---3-2-0---0-2-
----0-3-4-4-3-3-----0-3-4---0--- --------------------------------
repeat ? times.                  repeat ? times. 

bass:
-------------------------------- --------------------------------
-------------------------------- --------------------------------
5-5-------------5-5------------- 3---3-2-0---0-2-3---3-2-0---0-2-
----0-3-4-4-3-3-----0-3-4-4-3-3- --------------------------------

* * * * * * * * * * * * * * * * * * * * * * * * * * * * * * * * * * ^top^
top