(home) (bottom)

Song Info

X L S 1. 05. The Monkey Song
(Lyrics & Music by The Piz)


Lyrics

Five little monkeys jumping on the bed
one fell off and cracked his head
mama called the doctor and the doctor said,
"no more monkeys jumping on the bed"

(Four...Three...Two...)

One little monkey jumping on the bed
it fell off and broke its head
blood everywhere, now it's dead,
no more monkeys jumping on the bed

No little monkeys jumping on the bed
they fell off the goddamn bed
mama called the doctor and the doctor said,
"come on, baby, lets's get in bed"
no more monkeys


Transcription

main guitar thing:
----------------------------------------------------------------
----------------------------------------------------------------
------x---x---x-------x---x---x-------x---x---x---x-------------
------x---x---x-------x---x---x-------x---x---x-x-x-4---3-------
2---2-x-4-x-5-x-2---2-x-4-x-5-x-2---2-x-4-x-5-x-x-x-2---1-------
0---0---2---3---0---0---2---3---0---0---2---3-------------------

"ska" guitar:
----------------------------------------------------------------
x-2-x-2-x-2-x-2-x-2-x-2-2-3-3-3-x-2-x-2-x-2-x-2-x-2-x-2-0-------
x-2-x-2-x-2-x-2-x-2-x-2-2-3-3-3-x-2-x-2-x-2-x-2-x-2-x-2-0-------
x-2-x-2-x-2-x-2-x-2-x-2-2-3-3-3-x-2-x-2-x-2-x-2-x-2-x-2-0-------
----------------------------------------------------------------
----------------------------------------------------------------

bassline:
------------------------------------------------------------2---
--------------------------------------------------------3-2---0-
----------------------------------------------------------------
2---3---2---3---0-0-0-0-3---3---2---3---2---3---0---------------

top