(home) (bottom)

Song Info

S L S 1. 07. Evil Bob vs. Jerry
(Lyrics & Music by The Piz)


Description

"What is so intriguing about this song, I think, is the new voice which comes in after the death of Jerry. We are familria with two personae, Jerry and Evil Bob, yet after Jerry's death Evil Bob states the obvious and a new strange voice (who is this second person?) comes in and answers with a sarcastic remark which turns into a reduplication of the comment, pointing to the 'reduplication': of the Evil Bob persona." The lyrics were written in order to use a stupid concept, developed by jonjohnny mcfee one night, which is heard in the second section of lyrics.


Lyrics

Come on Jerry, give me the money.
I don't got it, Evil Bob. Don't shoot. Please don't shoot.
(machine gun fire)
I think Jerry's dead.
Ya think so?
toe moe snow go row grow bro tow blow no glow poe sew show hoe fro stow
joe bow yo oh slow though woe pro cho dough flow low co. zo crow quo vo


Transcription

guitar w/heavy distortion (in "weird tuning") (1 beat = 8 spaces):
----------------------------------------------------------------
----------------------------------------------------------------
----------------------------------------------------------------
--------0---2-3/5---3---2-3-2-----------0-----x---x-----0-------
--------------------------------------------x-x-x-x-------------
0---5---------------------------0---5-------x-x-x---5----------- etc

or in standard tuning with pitch shifter (down 5 half steps):
----------------------------------------------------------------
----------------------------------------------------------------
----------------------------------------------------------------
------------4-5/6---5---4-5-4-----------------x---x-------------
--------7-------------------------------7---x-x-x-x-----7-------
0---5---------------------------0---5-------x-x-x---5----------- etc

bassline:
(1)
----------------------------------------------------------------
----------------------------------------------------------------
------------0---2---0-----------------------0---2---0-----------
0---2---4---------------4---2---0---2---4---------------4---2---

(2)
----------------------------------------------------------------
----------------------------------------------------------------
2---2---------------------------2---2---------------------------
--------0---4---4---2---2---------------0---4---4---2---2-------

top