(home) (bottom)

Song Info

X L S 1. 24. Too Many Pancakes
(Lyrics & Music by The Piz)


Lyrics

When you eat
too many pancakes
When you eat
too many Frosted Flakes®
When you eat
too many pancakes
You get a big old nasty headache
doodle doo doot doo doodle doodle doo doot,
doodle doo doot doo doodle doodle doo doot.


Transcription

guitar (in "dropped d" for some reason) (1 beat = ? spaces):
----------------------------------------------------------
----------------------------------------------------------
----------------------------------------------------------
--------------------------------------------------5-4-3---
-------5----3----3---3-4-3----------5----3----3-----------
5----5-----------------------5----5-----------------------
and stuff

bassline: (not lined up with guitar) (1 beat = ? spaces)
---------------
---------------
---2-3/5--5\3--
3--------------

top