(home) (bottom)

Song Info

X L S 2. 10. Slippin' my speech in your soup
(Lyrics & Music by The Piz)


Lyrics

wanga wanga wanga wanga daa daa daa,
wanga wanga wanga wanga poopie poopie poopie poopie


Transcription

guitar:
(alternate between these three parts)
------------------------------------------------------------
------------------------------------------------------------
------------------------------------------------------------
13--13--13--13--13--13--13--13--13--13--13--13--13--13--13--
-0--11---0--11---0--11---0--11---0--11---0--11---0--11---0--
------------------------------------------------------------

------------------------------------------------------------
------------------------------------------------------------
13--13--13--13--13--13--13--13--13--13--13--13--13--13--13--
-0--11---0--11---0--11---0--11---0--11---0--11---0--11---0--
------------------------------------------------------------
------------------------------------------------------------

------------------------------------------------------------
------------------------------------------------------------
------------------------------------------------------------
------------------------------------------------------------
13--13--13--13--13--13--13--13--13--13--13--13--13--13--13--
-0--11---0--11---0--11---0--11---0--11---0--11---0--11---0--

bass:
------------------------------------------------------------
------------------------------------------------------------
------------------------------------------------------------
-0-------0-------0-------0-------0-------0-------0-------0--

top