(home) (bottom)

Song Info

X L S 24. into the cathedral we go
(Lyrics & Music by The Piz)


Lyrics

pissin' in the darkness pissin' out my memories
into the stained glass toilet bowl
standin' on the four-coloured rock
in the back of an antique shop


Transcription

guitar:
it's all one chord. you might call it "D7/C" with no fifth.
play this twice                 then play this once             then repeat
| - - - - - - - - - - - - - - -|| - - - - - - - - - - - - - - -|
2-2---2---2-----2-2---2---2---------2-------2-------2-------2---
3-3---3---3-----3-3---3---3-------3---3---3---3---3---3---3---3-
5-5---5---5-----5-5---5---5-----5-------5-------5-------5-------
----------------------------------------------------------------
----------------------------------------------------------------
----------------------------------------------------------------

bass:
--------------------------------
--------------------------------
0-5--75---------0-5--75--------- repeat this throughout the whole song.
----------5--75-----------5--75-

the bassline is simplified to line up with the guitar.
you have to slide up to the 7th fret and back down to make it sound like
a boomerang. note: don't play the 75th fret.

top