(home) (bottom)

Song Info

S L S 26. jacket, the brown
(Lyrics & Music by The Piz)


Description

Our #1 hit song that topped all the charts. Also known as "brown jacket." This song features the pizinator's "computer" effect on the vocals.


Lyrics

walking circles in the wine bottle,
and my hair is made of cheese
and everything i touch
turns to green peas
I'm a food-aholic and I'm freaking out on food
next thing you know I'll be walking in the nude

stop it bobby,
bobby stop it

i was walking through the forest
walking on my knees
and everything i touch
is everything i please.
i was looking for my brown jacket that's what i need
'cause in my brown jacket's a sack of goat feed

where's my brown jacket

i found my brown jacket but the goat feed was gone
so i gave my jacket to a froggie, he was sitting in a pond

and now I'm floating in the clouds, high above the trees
and everywhere there's a beautiful, just beautiful breeze


Transcription

i don't really know how to play it, but you need the floppy string
for the "stop it, bobby" parts. usually i play this song
in standard tuning with this chord:
0---0---0---0---0---0---0---0---
0---0---0---0---0---0---0---0---
0---0---0---0---0---0---0---0---
0---0---0---0---0---0---0---0---
1---1---1---1---1---1---1---1---
0---0---0---0---0---0---0---0---

bassline:
--------------------------------
--------------------------------
--------------------------0---0-
0---0---3-0---0-3-0---0-3-------

and:
--------------------------------
--------------------------0---0-
0---0---3-0---0-3-0---0-3-------
--------------------------------
bend all notes at the third fret.

then the "bridge" (so to speak):
0-0-0-0-0-0-0-------------------
----------------0-0-0-0-0-------
--------------------------------
--------------------------------

then the part at the end is arpeggiated major seventh chords:
(also in standard tuning) (1 beat = 8 spaces)
------------4-------------------     ------------0-------------------
--------5-------5-------5-------     --------1-------1-------1-------
----6---------------6-------6---     ----2---------------2-------2---
7------------------------------- and 3-------------------------------
--------------------------------     --------------------------------
--------------------------------     --------------------------------

bassline:
--------------------------------     --------------------------------
--------------------------------     --------------------------------
0--h5-------5/7\5--------------- and --------------------------------
--------------------------------     0--h5-------5/7\5---------------
h = hammer-on
the two bass and guitar parts don't necessarily coincide.
(that would have required planning and counting, two useless skills)

top