(home) (bottom)

Song Info

X L S 27. rat friend
(Lyrics & Music by The Piz)


Lyrics

i stink and i smell and i reek bad of urine
they try to catch me but I'm in the toilet bowl
i jump down below into the sewer system
at night they hunt with flashlights and scary faces
they have dogs real mean dogs but i have my rat friend
we hitch out of town with a bag full of brownies
as we leave the city limits i feel super
they tried to catch me with their brain-powered thinkers
my rat friend and i we can hide in the sewers
from town to town to town to town to town to town
the FBI wants me for painting their bathroom
but they can't find me 'cause I've got my rat friend
from town to town to town i hide in the sewers


Transcription

clean guitar (1 beat = 3 spaces):
------------------------------------
------------------------------------
------------12-11-------------------
------13-12-------11-10----------11-
---12-------------------10----9-----
11-------------------------10-------
repeat forever

bass:
do something like this at who knows what frets
------------------------------------
------------------------------------
---5--7-----?--+2----?--+2----?--+2-
/5-------/?-------/?-------/?-------

other part ("yeah, hide in the sewers!"):
---------
---------
4456--0--
---------
---------
---------
sort of.

bass:
------------------------------------------------
------------------------------------------------
0--0--0--0--4--4--4--4--6--6--6--6--6--6--6--6--
------------------------------------------------
sort of.

top