(home) (bottom)

Song Info

X X S 2. 03. larry's carcass
(Lyrics & Music by The Piz)


Transcription

guitar intro (clean):
----------------------------0--------------------------------
----7---------------7-------0-------7---------------7--------
7-7-7-------6---7-7-7-------0---7-7-7-------6---7-7-7--------
7-7-7-5/6---6-0-7-7-7-5/6-------7-7-7-5/6---6-0-7-7-7-5/6----
5-5---5/6-6-6-0-5-5---5/6-------5-5---5/6-6-6-0-5-5---5/6--/\
------3/4-4-----------3/4-------------3/4-4-----------3/4--/\
                            ^distortion, then slide up and down somewhere

guitar verse:                    guitar chorus:
-------------------------------- --------------------------------
-------------------------------- --------------------------------
7-7-------------7-7------------- 5---5-4-2---2-4-5---5-4-2---2-4-
7-7---5-6-6-5-5-7-7---5-6------- 5---5-4-2---2-4-5---5-4-2---2-4-
5-5-0-5-6-6-5-5-5-5-0-5-6---2--- 3---3-2-0---0-2-3---3-2-0---0-2-
----0-3-4-4-3-3-----0-3-4---0--- --------------------------------
repeat ? times.                  repeat ? times. 

bass:
-------------------------------- --------------------------------
-------------------------------- --------------------------------
5-5-------------5-5------------- 3---3-2-0---0-2-3---3-2-0---0-2-
----0-3-4-4-3-3-----0-3-4-4-3-3- --------------------------------

top