(home) (bottom)

Song Info

S L S 2. 04. on the boat
(Lyrics & Music by The Piz)


Description

A song about life "on the boat." This song was built around jonbobby mcfee's bassline, which sounded "like a boat song."


Lyrics

on the boat we don't need to take a bath 'cause
we've got lots of donuts on the boat
on the boat we chop people in half heh heh heh
if we didn't then where'd we get our socks? (in the refrigerator!)
on the boat we wear funny tights all day
and then we put 'em on our head
on the boat we make friends with all the birdies
so they won't go poopin' on our boat
we pick up each others' eyeballs when we lose 'em
'cause we're all real friendly on the boat (here ya go!)
on the boat the cook throws guys in the big pot
and then he serves it up and calls it rice
on the boat there's a guy with gold teeth
and none of us know who he is
on the boat every day is sunday
and we make up good excuses not to go to church
on the boat we all play with the funny rock
we're all proud zombie pirates on the boat!


Transcription

guitar w/light distortion (1 beat = 8 spaces):
(all upstrokes)
----------------------------------------------------------------
--------------------------------------------------------8---6---
0-------0-------0-------0-------0-------0-------0---------------
0-------0-------0-------0-------0-------0-------0---------------
----------------------------------------------------------------
----------------------------------------------------------------

bass:
----------------------------------------------------------------
----------------------------------------------------------------
0---0---3---0-3-0---------------0---0---3---0-3-0---------------
------------------------3-------------------------------3-------
                        ^bend                           ^bend

top