(home) (bottom)

Song Info

S L S 1. 02. i am the sunset
(Lyrics & Music by The Piz)


Description

This is a nice song that features the sound of a cassette tape being fast-forwarded. There's not much to say about this one. The tape being fast-forwarded is a recording of jonjohnny mcfee when he was approximately 2 or 3 years old.


Lyrics

i am the sunset
i am the sky
i am the first teardrop
every time you cry
i am your idol
your idle mind
i am nothing
nothing that you'll ever find
i am the twilight
i'm the moonrise
i am the first blood drop
every time you die


Transcription

acoustic guitar:
------5---5-5---0-0------------
------6---6-6---5-5---0--------
5-----7---7-7---6-6---5---5-5--
6-----0---0-0---7-7---6---6-6--
7---------------0-0---7---7-7--
0---------------------------0--

other part:
------7---------------7--------
------6---------------6--------
5-----5---------5-----5--------
6-----0---------6-----0--------
7---------------7--------------
0---------------0--------------

the end:
------7---------------7--------7---7---7---7---5
------6---------------6--------6---6---6---6---5
5-----5---------5-----5--------7---7---7---7---6
6-----0---------6-----0--------5---5---5---5---7
7---------------7--------------5---5---5---5---7
0---------------0------------------------------5

There is also another guitar at the beginning that does something.

top