(home) (bottom)

Song Info

S L S 09. Mr. Dead
(Lyrics & Music by The Piz)


Description

A song about a man named Mr. Dead. The music was written in order to have a song in which we would have to count to 17 in order to play it. Unfortunately this is too hard so we always mess up every time we try to play it. I think the words might rhyme with the numbers which are being said in the background.


Lyrics

(Voice 1 counts from 0 to 100 and then from 1 to 70)
(Voice 2):
Hi. I'm Mr. Dead.
Why doesn't everyone look green?
I don't understand how to build a machine to make sticks
I am dead dirty dead dod dad dud dead
I'm Mr. Dead but I still don't understand how to build a machine to make apples or sticks
People knock on my door because they want sticks
Or apples or shoes but they don't know that I don't know how to build machines like that
Please Mr. Dead build me a machine to make sticks
I don't understand how to build machines
I will kill people instead because
I'm Mr. Dead
I'm Mr. Dead
Why do people want me to build machines when I don't know how to build machines to make sticks
I'm Mr. Dead
I'm Mr. Dead


Transcription

guitar:
Em C G F
----0-------0-------2-------1---
----0-------1-------2-------1---
----0---0-0-0-0-----0-------2---
2-2-2-2-2-2-2-2-0-0-0-0-3-3-3-3-
2-2-2-2-3-3-3-3-X-X-X-X-3-3-3-3-
0-0-0-0---------3-3-3-3-1-1-1-1-

|<- - - - - - - - - - - - - -17 times- - - - - - - - - - - - - >|
0---0---0---0---0---0---0---0---0---0---0---0---0---0---0---0---0
2---2---2---2---2---2---2---2---2---2---2---2---2---2---2---2---2
0---0---0---0---0---0---0---0---0---0---0---0---0---0---0---0---0
-----------------------------------------------------------------
-----------------------------------------------------------------
-----------------------------------------------------------------

There is no bassline.

top