(home) (bottom)

Song Info

X L S 15. My Vacation in the Hotel
(Lyrics & Music by The Piz)


Lyrics

Down in the lobby where all the birdies fly
I see all the rich folk I see them with my eye
I go to the swimming pool to have myself a swim
There's lots of fat old guys in SpeedoŽs but I'm not as fat as them
I'm walking
I walk myself back upstairs to watch the TV screen
I see all the Spanish maids I think they're really mean
I take a little shower and then I go to bed
I like to dream of sugarplums dancing in my head
(ha ha ha ha)
I dream of going to Disneyland and riding all the rides
I dream of going to chocolate shops and eating chocolate pies
I dream of seeing Mickey Moose and all his goofy friends
I dream of taking the whole day off and spending it with them
I'm walking
I dream of pretty beaches with sand between my toes
And smelling pretty flowers smelling with my nose


Transcription

bass:
----4---2-------3-------4---2-------3---
2-2---3---4-3-1---1-2-2---3---4-3-1---1-
----------------------------------------
----------------------------------------

guitar:
0-0-----0-3-0-------0-0-------------0-3-
0-0-----------3-0---0-0---------0-3-----
1-1---------------1-1-1-----1-3---------
0-0-----------------0-0-----------------
2-2-----------------2-2-----------------
3-3-----------------3-3-----------------

top