(home) (bottom)

Song Info

X L S 02. Protruding Cavity
(Lyrics & Music by The Piz)


Lyrics

his fu-manchu is dyed blue to match his kung fu shoes
he struck a pose as he froze but for the wind on his clothes
and slower than the speed of sound, his opponent was aground
both fists flew after punches he threw as he read a book
and tied his shoe
even as your slave, he is the master of you
he can sit back and watch as his knee hits your crotch
he can run to the liquor store while he's kicking you
ass because he's so fast
he's the grandmaster of
fooyosaiiiaaaahahaha


Transcription

guitar, with surf reverb
intro/outro:
3-333-3---3-3-----111-1---1-1-----333-3---1-1---3---------------
3-333-3---3-3-----111-1---1-1-----333-3---1-1---3---------------
3-333-3---3-3-----222-2---2-2-----333-3---2-2---3---------------
5-555-5---5-5---3-333-3---3-3---5-555-5---3-3---5---------------
5-555-5---5-5---3-333-3---3-3---5-555-5---3-3---5---------------
3-333-3---3-3---1-111-1---1-1---3-333-3---1-1---3--------------- x2 

--------------------------------------------------------3-------
--------------------------------------------------------3-------
--------------------------------------------------------3-------
--------------------------------------------------------5-------
--------------------------------------------------------5-------
6-333-6-333-6-3-6-333-6-333-6-3-6-333-6-333-6-3-6-33333-3------- x2
"his fu manchu is dyed blue..."

--------------------------------------------------------1-------
--------------------------------------------------------1-------
--------------------------------------------------------2-------
--------------------------------------------------------3-------
--------------------------------------------------------3-------
3-111-3-111-3-1-3-111-3-111-3-1-3-111-3-111-3-1-3-11111-1-------
"then slower than the speed of sound..."

then play 6 333 part again once.

3---3-3---3-3-3-6---6-6---6-6-6-8---8-8---8-8-8-6---6-6---6-6---
3---3-3---3-3-3-6---6-6---6-6-6-8---8-8---8-8-8-6---6-6---6-6---
3---3-3---3-3-3-7---7-7---7-7-7-9---9-9---9-9-9-7---7-7---7-7---
5---5-5---5-5-5-8---8-8---8-8-8-10--1010--1010108---8-8---8-8---
5---5-5---5-5-5-8---8-8---8-8-8-10--1010--1010108---8-8---8-8---
3---3-3---3-3-3-6---6-6---6-6-6-8---9-8---8-8-8-6---6-6---6-6---
"even as your slave..."

3---3-3---3-3-3-6---6-6---6-6-6-10--1010--1010--10101010101010--
3---3-3---3-3-3-6---6-6---6-6-6-10--1010--1010--10101010101010--
3---3-3---3-3-3-7---7-7---7-7-7-11--1111--1111--11111111111111--
5---5-5---5-5-5-8---8-8---8-8-8-12--1212--1212--12121212121212--
5---5-5---5-5-5-8---8-8---8-8-8-12--1212--1212--12121212121212--
3---3-3---3-3-3-6---6-6---6-6-6-10--1010--1010--10101010101010--

then play outro once. 

make up your own bassline.

top