(home) (bottom)

Song Info

S L S 03. Growing Shorter
(Lyrics & Music by The Piz)


Description

"Froglet eat me, and mooseling beat me."


Lyrics

before time, there was only me
in no time at all, I was doing nothing
before me, there was only time
dandelions often see me as a scary thing
carrot pirates recruit Lego®s on an off day-zing!
Winnebagor way by jazz drain I lakes woodpeck
skin the in lay I as rain my bakes gooseneck
froglet eat me, and mooseling beat me
dog is stupid, come on let's dance
Bluehead wins again for the second year in a row
at the stuff-jumping show for the sit-jump-and-throw
"wow," they say, "way to go!"
gooseneck bakes my rain as I lay in the skin
woodpeck lakes I drain jazz by way Winnebagor
(at the sit-jump-and-throw...)


Transcription

bass:
----------------------------------------------------------------
----------------------------------------------------------------
------------------------------------5\(3)---3-------2-----------
0---3-0-2-/(5)5---0-3-0-2/(5)-5---5-------4---4-3-------3-2-1---
play it different every time, and don't be afraid to add or subtract 
beats whenever you feel like it.

guitar, with delay (340 ms):
----------------------------------------------------------------
----------------------------------------------------------------
------------------------------------9-------8-------7-----------
----9---8-7---------7---8-9---------------9---9-8-------9-8-7---
7-----------------9---------------------------------------------
----------------------------------------------------------------
also play this different every time, but try to play along with the bass.

top