(home) (bottom)

Song Info

S L S 10. Flagrant Affection
(Lyrics & Music by The Piz)


Description

This is a nice "love" song, straight from the heart, going out to all the ladies out there


Lyrics

if we share our gall bladder,
we can smell this love for money
like a two dollar bill
we can share our large intestine
we love us
we can smell our lung
breeding love and cash
I hear my eyes,
I mean we hear my nose
I mean you hear my mouth
we mean who hears my toes
I mean where are my toes
did you buy them
for love like a pancreas?
yeah, no, what?
let's eat the money
I don't know how to do the chorus part
AAAAAAAHHHHHHHH
I'm scared
I'm scared
ha ha ha
no
huh huhhuh huh
hhahuhahuhhuh
love tastes like money
with a tendon between
I sense our spleen inside the money
love dead puppies love to spend
like god holding my stomach
let's eat the money
and sell our finger
there was a bunny
but it didn't linger
they like to hop
and they don't stop
(they like to hop)
but they don't stop don't stop
(they like to hop)
hip hop hop
(but they don't stop) no stop
(uh uh) yeah yeah


Transcription

guitar, 1st part:
--------------------------------
--------------------------------
----2-2-----4-------------------
----2-2-----4---------2---------
----0-0-----2---------2---------
----------------------0---------

guitar, other part:
--------------------------------
--------------------------------
----5-5-----2-----4-------------
----5-5-----2-----4-------------
----3-3-----0-----2-------------
--------------------------------

top