(home) (bottom)

Song Info

X L S 13. Narrow Expanse
(Lyrics & Music by The Piz)


Lyrics

when I see it there, lying on the ground
I like to put it on and dance around town
nice and brown, a little caramel candy
I like to look at you and call you dandy
a cardboard box, so nice and boxy
I give you lips and call you Roxy
boxes are good for making cars
or building a ship and flying to Mars
I go behind bars in my cardboard box
that's where I keep all my socks, in my cardboard box`


Transcription

guitar:
1 2 3 4 5 6 7 1 2 3 4 5 6 7
--------------------------------------------------------
--------------------------------------------------------
----------------4-4---2---------------------------------
4\2---2---4---4---5-5---3---4\2---2---4---4---5-4-3-2---4\
5\3-0-3---5---5-------------5\3-0-3---5---5-------------5\
--------------------------------------------------------   etc.

high part:
----------------------------
----------------------------
----------------1616--14----16\
14--14--16--16--1717--15----
17\150-15--17--17-----------17\
----------------------------

top