(home) (bottom)

Song Info

X L S 18. Dehydrated Water
(Lyrics & Music by The Piz)


Lyrics

once, when I was eight
I tried real hard to see my fate
I saw myself in a fiery blaze
all lit up, and burned for days
and once when I was forty-six
I came across two small sticks
I rubbed them together oh so fast
fire lit up, and burned my ass
burned real deep, so I jumped right up
I teached it a lesson but still it refused
so now I burn for you


Transcription

guitar (acoustic):
intro:
----------------------------------------------------------------
----------------------------------------------------------------
0-------0---0-0---0-0---0---0-0-0-------0-----0---0---0-0---0-0-
1-------1---1-1---1-1---1---1-1-1/(2)---2-----2---2---2-2---2-2-
2-------2---2-2---2-2---2---2-2-2/(3)---3-----3---3---3-3---3-3-
0-------0---0-0---0-0---0---0-0-0-------0-----0---0---0-0---0-0- 
once... when
----------------------------------------------------------------
----------------------------------------------------------------
0-------0-----0---0-0-----0-0---0-------0-----0---0-0---0-0-0-0-
4-------4-----4---4-4-----4-4---0-------0-----0---0-0---0-0-0-0-
2-------2-----2---2-2-----2-2---2-------2-----2---2-2---2-2-2-2-
0-------0-----0---0-0-----0-0---3-------3-----3---3-3---3-3-3-3-
I was eight... I trydrealhard... to then repeat this part:

----------------------------------------------------------------
3-------------3---3---------------------------------------------
0-------0---0-0---0-0---0-------0-------0---0-0---0-0---0---0---
0-------0---0-0---0-0-------4---2-------2---2-2---2-2---2/4-4---
2-------2---2-2---2-2-----------3-------3---3-3---3-3---3/5-5---
3-------3---3-3---3-3-----------------------0-----------0-------
see my fate... I saw my- self... Ina...

top