(home) (bottom)

Song Info

X L S 07. Milkin' the Barn
(Lyrics & Music by The Piz)


Lyrics

i wake up at five-thirty o'clock
just in time to hear the cock
a-doodle-dee-doot-duh-doot-doot-doo
i go outside and start milkin' the barn
the cows are flyin' away again, oh darn
piggy and chicken poop smell good to me
if i could just jump over that fence i'd be free
like bowels in the outhouse


Transcription

bass tab with guitar chords:
    C                               F
--------------------------------------------------------------------
----------------------------------0-3---------------3---5-------0-3-
--0-3---------------3-----------3-----------3---------------3-------
3-----------3---------------3---------------------------------------
| + / + | + | + | + / + | + | + | + / + | + | + | + / + | + | + | + 
                                          i wake up at five thirtyo  

    C                               E
    ----------------------------------------------------------------
    ----------------------------------------------------------------
    3---------------3---------0-2-----------2-------------------0-2-
    --------3---------------3-----0-0---------------0-----0-3-------
    / + | + | + | + / + | + | + | + / + | + | + | + / + | + | + | + 
    clock                           just in time      to heeear the 

    C                               F
    ----------------------------------------------------------------
    ----------------------------------------3---------------3---0---
    3---------------3-----------0---3---------------3---------------
    --------3---------------3---------------------------------------
    / + | + | + | + / + | + | + | + / + | + | + | + / + | + | + | + 
    cock                  a-doodledydoodadoodoot doo

    C                               A                           
    ----------------------------------------------------------------
    ------------------------------------------------2---------------
    3---------------3-------0---0-3-0-------0-----------------------
    --------3-----------------3---------------------------3---------
    / + | + | + | + / + | + | + | + / + | + | + | + / + | + | + | + 
                                      i go osidestrtmlknthbarn      

    C                               Em
    ----------------------------------------------------------------
    ------------0-------------------------------------------------0-
    3-------------3-0---0-2-0-------0---2---------0-2---------------
    ------------------0---------0-----------0---------------0-------
    / + | + | + | + / + | + | + | + / + | + | + | + / + | + | + | + 
     the cowsrflynawaaay again  oh  darn

    Am                              Em                              
    ----------------------------------------------------------------
    2-------------0-2-----------------------------------------------
    --------0---------------0-----0-2-------------0-2-------------0-
    ----------------------------------------2---------------0-------
    / + | + | + | + / + | + | + | + / + | + | + | + / + | + | + | + 

    C               G               C
    ----------------------------------------------------------------
    ----3---2---2---------------------------------------------------
    3-----------------2-222-2---2-2-3---------------3-----------0-2-
    ----------------------------------------3---------------3-------
    / + | + | + | + / + | + | + | + / + | + | + | + / + | + | + | + 
                                pigyand chiken      poopsmlsgood to

                    F                               G               
    ----------------------------------------------------------------
    --------3-------------------------------------------------------
    3---------------3---------------3-------------------2---3---2---
    ------------------------3---------------3-------3-----3---3-----
    / + | + | + | + / + | + | + | + / + | + | + | + / + | + | + | + 
    me                        ifi cdjustjumpoverthatfenci'dbeeee  

    C
    --------------------------------
    --------------------------------
    3-----------------3-----0-2-3---
    --------------------3-----------
    / + | + | + | +
  freeeeeeee   like bowels in the outhouse

top