(home) (bottom)

Song Info

X L S 1. 06. butthole
(Lyrics & Music by The Piz)


Lyrics

green pens, purple hens, big rugs, mutant bugs,
soda cans, pots and pans, chair back, guy name mac

chorus- butt hole, butt holey-hole

table salt, black cult, hair cuts, gay mutts, mother goose,
hang loose, telephone, no one's home, ear wax, i play jacks

{chorus]

butterfly, purple sky, government, elephant,
green grass, big ass, back pack, lunch sack, ugly man, go in can,

[chorus]

people hate and discriminate, paper sheet, i hate meat, say something,
dogs are humping, christmas tree, take a pee, shoe horn, yellow corn

[chorus]

5, bee hive, ear lace, keep up pace, jean pants, army ants, pin holes,
cow poles, have a look, learn in book,

[chorus]

chewing cud, elmerfudd, don't eat cows, take me now,
stop this song, it was long.

[chorus]


Transcription

guitar intro (1 beat = 8 spaces):
--------------------------------
--------7---x-0-----------------
----x---5---x-------------------
----x-------x-----------3-------
----x-----------4---4-------0---
2------------------------------- etc.
repeat a few times

other part:
--------------------------------
--------------------------------
------------x-x-4---------------
----x---6---x-------------------
4---x---4-----------------------
2-------------------7---5---4---
repeat lots

end part:
--------------------------------
------------------x-------------
------------x-0---x-x-x-4---4---
--------15--x---x-x-x-x-3---3---
--------13--x---x-x-x-x---------
0---0-----------x---x-----------

silly bassline:
--------------------------------
--------------------------------
--------4---------------3-------
2---------------5---5-----------
play over and over forever

top