(home) (bottom)

Song Info

S L S 1. 11. pancakes and broccoli
(Lyrics & Music by The Piz)


Description

Try to order pancakes and broccoli at a restaurant such as Denny's. It doesn't always work. The rumour is that bobbobby and bobjohnny used to sing this song, accompanied by banging on a table, in the mall, "to get money."


Lyrics

every morning when i wake up, i have my broccoli in my cup
broccoli broccoli is good for me, broccoli broccoli is better than tea.

chorus:
pancakes and broccoli. broccoli.
pancakes and broccoli. broccoli.

every afternoon when i have my lunch, and boy those pancakes i love to munch
pancakes, pancakes, and broccoli too, i love my pancakes better than you.

[chorus]

every evening when i go to bed, i have that broccoli in my head
i may be obsessed but that's ok, i had my broccoli throughout the day.

[chorus]


Transcription

basic guitar thingie (1 beat = 8 spaces):
3---1---3-1---------------------
------------3-3-2-1-------------
--------------------3---0-------
--------------------------------
--------------------------------
--------------------------------
play with alternating strokes

then the chords are G and C7
                   -3-    -0-
                   -0-    -1-
                   -0-    -3-
                   -0-    -2-
                   -2-    -3-
                   -3-    ---

bassline:
--------------------------------
--------------------------------
--------------------------------
3---3--/8---8-------8---8-------
you'll notice that it's two notes

top